  0
SECTION
  2
HEADER
  9
$EXTMIN
 10
-40.834181
 20
-16.040552
 30
0.0
  9
$EXTMAX
 10
-17.685100
 20
15.243929
 30
0.0
  9
$DIMPOST
  1

  9
$DIMSCALE
 40
1.0
  9
$DIMTXT
 40
3.0
  9
$DIMASZ
 40
3.0
  9
$DIMEXO
 40
0.5
  9
$DIMEXE
 40
0.5
  9
$DIMSE1
 70
     0
  9
$DIMSE2
 70
     0
  9
$DIMBLK
  1
CND_FRECCIA
  9
$DIMBLK1
  1
CND_FRECCIA
  9
$DIMBLK2
  1
CND_PALLINO
  9
$DIMTAD
 70
     0
  9
$DIMTIH
 70
     0
  9
$DIMTIX
 70
     0
  9
$DIMTOL
 70
     0
  0
ENDSEC
  0
SECTION
  2
TABLES
  0
TABLE
  2
LTYPE
 70
    50
  0
LTYPE
  2
CONTINUOUS
 70
     0
  3
Solid line
 72
    65
 73
     0
 40
0.0
  0
LTYPE
  2
DASHED
 70
     0
  3
-- -- --
 72
    65
 73
     2
 40
0.75
 49
0.5
 49
-0.25
  0
LTYPE
  2
HIDDEN
 70
     0
  3
-  -  -  -
 72
    65
 73
     2
 40
0.375
 49
0.25
 49
-0.125
  0
LTYPE
  2
CENTER
 70
     0
  3
-- - -- -
 72
    65
 73
     4
 40
2.0
 49
1.25
 49
-0.25
 49
0.25
 49
-0.25
  0
LTYPE
  2
PHANTOM
 70
     0
  3
-- - - --
 72
    65
 73
     6
 40
2.5
 49
1.25
 49
-0.25
 49
0.25
 49
-0.25
 49
0.25
 49
-0.25
  0
LTYPE
  2
DOT
 70
     0
  3
. . . . .
 72
    65
 73
     2
 40
0.25
 49
0.0
 49
-0.25
  0
LTYPE
  2
DASHDOT
 70
     0
  3
-- . -- .
 72
    65
 73
     4
 40
1.0
 49
0.5
 49
-0.25
 49
0.0
 49
-0.25
  0
LTYPE
  2
BORDER
 70
     0
  3
-- -- . -
 72
    65
 73
     6
 40
1.75
 49
0.5
 49
-0.25
 49
0.5
 49
-0.25
 49
0.0
 49
-0.25
  0
LTYPE
  2
DIVIDE
 70
     0
  3
-- .. -- 
 72
    65
 73
     6
 40
1.25
 49
0.5
 49
-0.25
 49
0.0
 49
-0.25
 49
0.0
 49
-0.25
  0
ENDTAB
  0
TABLE
  2
LAYER
 70
    18
  0
LAYER
  2
Nor_
 70
     0
 62
     1
  6
CONTINUOUS
  0
LAYER
  2
Assi
 70
     0
 62
     2
  6
DASHDOT
  0
LAYER
  2
Fil_
 70
     0
 62
    11
  6
HIDDEN
  0
LAYER
  2
Raf_
 70
     0
 62
     4
  6
HIDDEN
  0
LAYER
  2
Sez_
 70
     0
 62
     6
  6
DASHDOT
  0
LAYER
  2
Sim_
 70
     0
 62
     1
  6
CONTINUOUS
  0
LAYER
  2
Est_
 70
     0
 62
     9
  6
CONTINUOUS
  0
LAYER
  2
Col_
 70
     0
 62
     1
  6
CONTINUOUS
  0
LAYER
  2
Tab_
 70
     0
 62
     1
  6
CONTINUOUS
  0
LAYER
  2
9
 70
     0
 62
     1
  6
CONTINUOUS
  0
LAYER
  2
Tra_
 70
     0
 62
     8
  6
HIDDEN
  0
LAYER
  2
11
 70
     0
 62
     1
  6
CONTINUOUS
  0
LAYER
  2
12
 70
     0
 62
     1
  6
CONTINUOUS
  0
LAYER
  2
sot_
 70
     0
 62
    11
  6
CONTINUOUS
  0
LAYER
  2
tes_
 70
     0
 62
     1
  6
CONTINUOUS
  0
LAYER
  2
fini
 70
     0
 62
    14
  6
CONTINUOUS
  0
LAYER
  2
Campiture
 70
     0
 62
     3
  6
CONTINUOUS
  0
LAYER
  2
Quote
 70
     0
 62
     7
  6
CONTINUOUS
  0
ENDTAB
  0
TABLE
  2
STYLE
 70
     1
  0
STYLE
  2
ROMANS
 70
     0
 40
0.0
 41
0.85
 50
0.0
 71
     0
 42
1.0
  3
ROMANS
  4

  0
ENDTAB
  0
TABLE
  2
DIMSTYLE
 70
     2
  0
DIMSTYLE
  2
CNDRAFT
 70
     0
  3

  4

  5
CND_FRECCIA
  6
CND_PALLINO
  7
CND_FRECCIA
 40
1.0
 41
3.0
 42
0.5
 43
0.0
 44
0.5
 45
0.0
 46
0.0
 47
0.0
 48
0.0
 71
     0
 72
     0
 73
     0
 74
     0
 75
     0
 76
     0
 77
     1
 78
     8
140
3.0
141
0.0
142
0.0
143
25.4
144
1.0
145
0.0
146
0.0
147
0.75
170
     0
171
     0
172
     1
173
     0
174
     0
175
     0
176
     7
177
     7
178
     1
271
     2
272
     3
275
     0
  0
ENDTAB
  0
ENDSEC
  0
SECTION
  2
BLOCKS
  0
BLOCK
  8
0
  2
CND_FRECCIA
 70
    66
 10
0.0
 20
0.0
 30
0.0
  0
INSERT
  8
0
  5
0
  2
FRECCIA
 10
0.0
 20
0.0
 30
0.0
 41
-1.0
  0
ENDBLK
  0
BLOCK
  8
0
  2
CND_PALLINO
 70
    66
 10
0.0
 20
0.0
 30
0.0
  0
INSERT
  8
0
  5
0
  2
PALLINO
 10
0.0
 20
0.0
 30
0.0
 41
-1.0
  0
ENDBLK
  0
BLOCK
  8
0
  2
PALLINO
 70
    66
 10
0.0
 20
0.0
 30
0.0
  0
CIRCLE
  8
Sez_
  5
0
  6
CONTINUOUS
 62
     2
 10
0.0
 20
0.0
 30
0.0
 40
0.231555
  0
ENDBLK
  0
BLOCK
  8
0
  2
FRECCIA
 70
    66
 10
0.0
 20
0.0
 30
0.0
  0
LINE
  8
Nor_
  5
0
  6
CONTINUOUS
 62
    11
 10
0.0
 20
0.0
 30
0.0
 11
1.0
 21
-0.168424
 31
0.0
  0
LINE
  8
Nor_
  5
0
  6
CONTINUOUS
 62
    11
 10
1.0
 20
-0.168424
 30
0.0
 11
0.791691
 21
0.0
 31
0.0
  0
LINE
  8
Nor_
  5
0
  6
CONTINUOUS
 62
    11
 10
0.0
 20
0.0
 30
0.0
 11
1.0
 21
0.182296
 31
0.0
  0
LINE
  8
Nor_
  5
0
  6
CONTINUOUS
 62
    11
 10
1.0
 20
0.182296
 30
0.0
 11
0.791691
 21
0.0
 31
0.0
  0
ENDBLK
  0
ENDSEC
  0
SECTION
  2
ENTITIES
  0
CIRCLE
  8
Nor_
  5
0
  6
CONTINUOUS
 62
     1
 10
-25.237331
 20
6.921907
 30
0.0
 40
1.7
  0
CIRCLE
  8
Nor_
  5
0
  6
CONTINUOUS
 62
    14
 10
-25.237331
 20
6.921907
 30
0.0
 40
6.0
  0
CIRCLE
  8
Nor_
  5
0
  6
CONTINUOUS
 62
     1
 10
-25.237331
 20
6.921907
 30
0.0
 40
6.5
  0
LINE
  8
Nor_
  5
0
  6
CONTINUOUS
 62
     1
 10
-26.737331
 20
7.721907
 30
0.0
 11
-26.737331
 21
6.121907
 31
0.0
  0
LINE
  8
Nor_
  5
0
  6
CONTINUOUS
 62
     1
 10
-26.680151
 20
6.022869
 30
0.0
 11
-25.294511
 21
5.222869
 31
0.0
  0
LINE
  8
Nor_
  5
0
  6
CONTINUOUS
 62
     1
 10
-25.294511
 20
8.620945
 30
0.0
 11
-26.680151
 21
7.820945
 31
0.0
  0
LINE
  8
Nor_
  5
0
  6
CONTINUOUS
 62
     1
 10
-23.794511
 20
6.022869
 30
0.0
 11
-25.180151
 21
5.222869
 31
0.0
  0
LINE
  8
Nor_
  5
0
  6
CONTINUOUS
 62
     1
 10
-25.180151
 20
8.620945
 30
0.0
 11
-23.794511
 21
7.820945
 31
0.0
  0
LINE
  8
Nor_
  5
0
  6
CONTINUOUS
 62
     1
 10
-23.737331
 20
7.721907
 30
0.0
 11
-23.737331
 21
6.121907
 31
0.0
  0
ARC
  8
Nor_
  5
0
  6
CONTINUOUS
 62
     1
 10
-22.937331
 20
-3.378093
 30
0.0
 40
0.3
 50
180.000000
 51
270.000000
  0
LINE
  8
Nor_
  5
0
  6
CONTINUOUS
 62
     1
 10
-23.237331
 20
-3.378093
 30
0.0
 11
-23.237331
 21
-3.278093
 31
0.0
  0
ARC
  8
Nor_
  5
0
  6
CONTINUOUS
 62
     1
 10
-22.937331
 20
-3.278093
 30
0.0
 40
0.3
 50
90.0
 51
180.000000
  0
LINE
  8
Nor_
  5
0
  6
CONTINUOUS
 62
     1
 10
-21.737331
 20
-2.978093
 30
0.0
 11
-22.937331
 21
-2.978093
 31
0.0
  0
LINE
  8
Nor_
  5
0
  6
CONTINUOUS
 62
     1
 10
-21.737331
 20
-1.978093
 30
0.0
 11
-21.737331
 21
-2.978093
 31
0.0
  0
LINE
  8
Nor_
  5
0
  6
CONTINUOUS
 62
     1
 10
-21.737331
 20
-1.978093
 30
0.0
 11
-28.737331
 21
-1.978093
 31
0.0
  0
LINE
  8
Nor_
  5
0
  6
CONTINUOUS
 62
     1
 10
-28.737331
 20
-1.978093
 30
0.0
 11
-28.737331
 21
-2.978093
 31
0.0
  0
LINE
  8
Nor_
  5
0
  6
CONTINUOUS
 62
     1
 10
-27.537331
 20
-2.978093
 30
0.0
 11
-28.737331
 21
-2.978093
 31
0.0
  0
ARC
  8
Nor_
  5
0
  6
CONTINUOUS
 62
     1
 10
-27.537331
 20
-3.278093
 30
0.0
 40
0.300000
 50
0.0
 51
90.000000
  0
LINE
  8
Nor_
  5
0
  6
CONTINUOUS
 62
     1
 10
-27.237331
 20
-3.378093
 30
0.0
 11
-27.237331
 21
-3.278093
 31
0.0
  0
ARC
  8
Nor_
  5
0
  6
CONTINUOUS
 62
     1
 10
-27.537331
 20
-3.378093
 30
0.0
 40
0.3
 50
270.0
 51
360.000000
  0
LINE
  8
Nor_
  5
0
  6
CONTINUOUS
 62
     1
 10
-27.537331
 20
-3.678093
 30
0.0
 11
-28.737331
 21
-3.678093
 31
0.0
  0
ARC
  8
Nor_
  5
0
  6
CONTINUOUS
 62
     1
 10
-28.737331
 20
-2.678093
 30
0.0
 40
1.000000
 50
180.000000
 51
270.000000
  0
LINE
  8
Nor_
  5
0
  6
CONTINUOUS
 62
     1
 10
-29.737331
 20
-2.678093
 30
0.0
 11
-29.737331
 21
2.231491
 31
0.0
  0
LINE
  8
Nor_
  5
0
  6
CONTINUOUS
 62
     1
 10
-28.737331
 20
-0.778093
 30
0.0
 11
-28.737331
 21
1.444681
 31
0.0
  0
LINE
  8
Nor_
  5
0
  6
CONTINUOUS
 62
     1
 10
-21.737331
 20
-0.778093
 30
0.0
 11
-28.737331
 21
-0.778093
 31
0.0
  0
LINE
  8
Nor_
  5
0
  6
CONTINUOUS
 62
     1
 10
-21.737331
 20
-0.778093
 30
0.0
 11
-21.737331
 21
1.444681
 31
0.0
  0
LINE
  8
Nor_
  5
0
  6
CONTINUOUS
 62
     1
 10
-20.737331
 20
-2.678093
 30
0.0
 11
-20.737331
 21
2.231491
 31
0.0
  0
ARC
  8
Nor_
  5
0
  6
CONTINUOUS
 62
     1
 10
-21.737331
 20
-2.678093
 30
0.0
 40
1.000000
 50
270.0
 51
360.000000
  0
LINE
  8
Nor_
  5
0
  6
CONTINUOUS
 62
     1
 10
-21.737331
 20
-3.678093
 30
0.0
 11
-22.937331
 21
-3.678093
 31
0.0
  0
LINE
  8
Nor_
  5
0
  6
CONTINUOUS
 62
     1
 10
-19.237331
 20
-5.878093
 30
0.0
 11
-19.237331
 21
4.421907
 31
0.0
  0
LINE
  8
Nor_
  5
0
  6
CONTINUOUS
 62
     1
 10
-19.237331
 20
9.421907
 30
0.0
 11
-19.237331
 21
13.521907
 31
0.0
  0
ARC
  8
Nor_
  5
0
  6
CONTINUOUS
 62
     1
 10
-19.537331
 20
-5.878093
 30
0.0
 40
0.300000
 50
270.0
 51
360.000000
  0
LINE
  8
Nor_
  5
0
  6
CONTINUOUS
 62
     1
 10
-19.537331
 20
-6.178093
 30
0.0
 11
-19.937331
 21
-6.178093
 31
0.0
  0
ARC
  8
Nor_
  5
0
  6
CONTINUOUS
 62
     1
 10
-19.937331
 20
-5.878093
 30
0.0
 40
0.3
 50
180.000000
 51
270.000000
  0
LINE
  8
Nor_
  5
0
  6
CONTINUOUS
 62
     1
 10
-20.237331
 20
-5.878093
 30
0.0
 11
-20.237331
 21
2.768595
 31
0.0
  0
LINE
  8
Nor_
  5
0
  6
CONTINUOUS
 62
     1
 10
-20.237331
 20
11.075219
 30
0.0
 11
-20.237331
 21
12.521907
 31
0.0
  0
ARC
  8
Nor_
  5
0
  6
CONTINUOUS
 62
     1
 10
-20.537331
 20
12.521907
 30
0.0
 40
0.3
 50
0.0
 51
90.000000
  0
LINE
  8
Nor_
  5
0
  6
CONTINUOUS
 62
     1
 10
-20.537331
 20
12.821907
 30
0.0
 11
-22.509695
 21
12.821907
 31
0.0
  0
LINE
  8
Nor_
  5
0
  6
CONTINUOUS
 62
     1
 10
-27.964967
 20
12.821907
 30
0.0
 11
-29.937331
 21
12.821907
 31
0.0
  0
ARC
  8
Nor_
  5
0
  6
CONTINUOUS
 62
     1
 10
-29.937331
 20
12.521907
 30
0.0
 40
0.3
 50
90.0
 51
180.000000
  0
LINE
  8
Nor_
  5
0
  6
CONTINUOUS
 62
     1
 10
-30.237331
 20
11.075219
 30
0.0
 11
-30.237331
 21
12.521907
 31
0.0
  0
LINE
  8
Nor_
  5
0
  6
CONTINUOUS
 62
     1
 10
-30.237331
 20
-5.878093
 30
0.0
 11
-30.237331
 21
2.768595
 31
0.0
  0
ARC
  8
Nor_
  5
0
  6
CONTINUOUS
 62
     1
 10
-30.537331
 20
-5.878093
 30
0.0
 40
0.3
 50
270.0
 51
360.000000
  0
LINE
  8
Nor_
  5
0
  6
CONTINUOUS
 62
     1
 10
-30.937331
 20
-6.178093
 30
0.0
 11
-30.537331
 21
-6.178093
 31
0.0
  0
ARC
  8
Nor_
  5
0
  6
CONTINUOUS
 62
     1
 10
-30.937331
 20
-5.878093
 30
0.0
 40
0.300000
 50
180.000000
 51
270.000000
  0
LINE
  8
Nor_
  5
0
  6
CONTINUOUS
 62
     1
 10
-31.237331
 20
-5.878093
 30
0.0
 11
-31.237331
 21
4.421907
 31
0.0
  0
LINE
  8
Nor_
  5
0
  6
CONTINUOUS
 62
     1
 10
-31.237331
 20
9.421907
 30
0.0
 11
-31.237331
 21
13.521907
 31
0.0
  0
ARC
  8
Nor_
  5
0
  6
CONTINUOUS
 62
     1
 10
-30.937331
 20
13.521907
 30
0.0
 40
0.3
 50
90.0
 51
180.000000
  0
LINE
  8
Nor_
  5
0
  6
CONTINUOUS
 62
     1
 10
-19.537331
 20
13.821907
 30
0.0
 11
-30.937331
 21
13.821907
 31
0.0
  0
ARC
  8
Nor_
  5
0
  6
CONTINUOUS
 62
     1
 10
-19.537331
 20
13.521907
 30
0.0
 40
0.3
 50
0.0
 51
90.000000
  0
LINE
  8
Nor_
  5
0
  6
CONTINUOUS
 62
     1
 10
-20.337331
 20
11.192738
 30
0.0
 11
-20.337331
 21
11.321907
 31
0.0
  0
LINE
  8
Nor_
  5
0
  6
CONTINUOUS
 62
     1
 10
-30.137331
 20
11.192738
 30
0.0
 11
-30.137331
 21
11.321907
 31
0.0
  0
LINE
  8
Nor_
  5
0
  6
CONTINUOUS
 62
     1
 10
-30.137331
 20
11.321907
 30
0.0
 11
-30.021680
 21
11.321907
 31
0.0
  0
LINE
  8
Nor_
  5
0
  6
CONTINUOUS
 62
     1
 10
-20.452982
 20
11.321907
 30
0.0
 11
-20.337331
 21
11.321907
 31
0.0
  0
ARC
  8
Nor_
  5
0
  6
CONTINUOUS
 62
     1
 10
-20.637331
 20
12.521907
 30
0.0
 40
0.3
 50
0.0
 51
90.000000
  0
LINE
  8
Nor_
  5
0
  6
CONTINUOUS
 62
     1
 10
-20.337331
 20
12.521907
 30
0.0
 11
-20.337331
 21
11.321907
 31
0.0
  0
LINE
  8
Nor_
  5
0
  6
CONTINUOUS
 62
     1
 10
-30.137331
 20
12.521907
 30
0.0
 11
-30.137331
 21
11.321907
 31
0.0
  0
ARC
  8
Nor_
  5
0
  6
CONTINUOUS
 62
     1
 10
-29.837331
 20
12.521907
 30
0.0
 40
0.3
 50
90.0
 51
180.000000
  0
LINE
  8
Nor_
  5
0
  6
CONTINUOUS
 62
     1
 10
-28.437331
 20
12.821907
 30
0.0
 11
-28.437331
 21
12.579645
 31
0.0
  0
LINE
  8
Nor_
  5
0
  6
CONTINUOUS
 62
     1
 10
-22.037331
 20
12.821907
 30
0.0
 11
-22.037331
 21
12.579645
 31
0.0
  0
LINE
  8
Nor_
  5
0
  6
CONTINUOUS
 62
     1
 10
-23.366641
 20
-4.378093
 30
0.0
 11
-23.860772
 21
-8.402467
 31
0.0
  0
ARC
  8
Nor_
  5
0
  6
CONTINUOUS
 62
     1
 10
-24.059281
 20
-8.378093
 30
0.0
 40
0.200000
 50
268.689245
 51
353.000000
  0
ARC
  8
Nor_
  5
0
  6
CONTINUOUS
 62
     1
 10
-24.068431
 20
-8.378093
 30
0.0
 40
0.2
 50
175.727250
 51
271.310755
  0
LINE
  8
Nor_
  5
0
  6
CONTINUOUS
 62
     1
 10
-24.267875
 20
-8.363192
 30
0.0
 11
-23.970141
 21
-4.378093
 31
0.0
  0
LINE
  8
Nor_
  5
0
  6
CONTINUOUS
 62
     1
 10
-26.504521
 20
-4.378093
 30
0.0
 11
-23.970141
 21
-4.378093
 31
0.0
  0
LINE
  8
Nor_
  5
0
  6
CONTINUOUS
 62
     1
 10
-26.206787
 20
-8.363192
 30
0.0
 11
-26.504521
 21
-4.378093
 31
0.0
  0
ARC
  8
Nor_
  5
0
  6
CONTINUOUS
 62
     1
 10
-26.406231
 20
-8.378093
 30
0.0
 40
0.2
 50
268.689245
 51
364.272750
  0
ARC
  8
Nor_
  5
0
  6
CONTINUOUS
 62
     1
 10
-26.415381
 20
-8.378093
 30
0.0
 40
0.200000
 50
187.000000
 51
271.310755
  0
LINE
  8
Nor_
  5
0
  6
CONTINUOUS
 62
     1
 10
-27.108021
 20
-4.378093
 30
0.0
 11
-26.613890
 21
-8.402467
 31
0.0
  0
LINE
  8
Nor_
  5
0
  6
CONTINUOUS
 62
     1
 10
-28.425381
 20
-4.378093
 30
0.0
 11
-27.108021
 21
-4.378093
 31
0.0
  0
LINE
  8
Nor_
  5
0
  6
CONTINUOUS
 62
     1
 10
-28.425381
 20
-4.378093
 30
0.0
 11
-28.026016
 21
-7.149568
 31
0.0
  0
ARC
  8
Nor_
  5
0
  6
CONTINUOUS
 62
     1
 10
-28.223971
 20
-7.178093
 30
0.0
 40
0.2
 50
268.032936
 51
368.199840
  0
ARC
  8
Nor_
  5
0
  6
CONTINUOUS
 62
     1
 10
-28.237701
 20
-7.178093
 30
0.0
 40
0.2
 50
192.000000
 51
271.967064
  0
LINE
  8
Nor_
  5
0
  6
CONTINUOUS
 62
     1
 10
-29.037331
 20
-4.378093
 30
0.0
 11
-28.433331
 21
-7.219675
 31
0.0
  0
LINE
  8
Nor_
  5
0
  6
CONTINUOUS
 62
     1
 10
-29.037331
 20
-3.778093
 30
0.0
 11
-29.037331
 21
-4.378093
 31
0.0
  0
LINE
  8
Nor_
  5
0
  6
CONTINUOUS
 62
     1
 10
-29.037331
 20
-3.778093
 30
0.0
 11
-26.237331
 21
-3.778093
 31
0.0
  0
ARC
  8
Nor_
  5
0
  6
CONTINUOUS
 62
     1
 10
-26.237331
 20
-3.578093
 30
0.0
 40
0.2
 50
270.0
 51
360.000000
  0
LINE
  8
Nor_
  5
0
  6
CONTINUOUS
 62
     1
 10
-26.037331
 20
-3.155523
 30
0.0
 11
-26.037331
 21
-3.578093
 31
0.0
  0
ARC
  8
Nor_
  5
0
  6
CONTINUOUS
 62
     1
 10
-26.237331
 20
-3.155523
 30
0.0
 40
0.200000
 50
0.0
 51
83.157230
  0
LINE
  8
Nor_
  5
0
  6
CONTINUOUS
 62
     1
 10
-26.213502
 20
-2.956948
 30
0.0
 11
-28.361160
 21
-2.699238
 31
0.0
  0
ARC
  8
Nor_
  5
0
  6
CONTINUOUS
 62
     1
 10
-28.337331
 20
-2.500663
 30
0.0
 40
0.200000
 50
180.000000
 51
263.157230
  0
LINE
  8
Nor_
  5
0
  6
CONTINUOUS
 62
     1
 10
-28.537331
 20
-2.278093
 30
0.0
 11
-28.537331
 21
-2.500663
 31
0.0
  0
ARC
  8
Nor_
  5
0
  6
CONTINUOUS
 62
     1
 10
-28.337331
 20
-2.278093
 30
0.0
 40
0.2
 50
90.0
 51
180.000000
  0
LINE
  8
Nor_
  5
0
  6
CONTINUOUS
 62
     1
 10
-28.337331
 20
-2.078093
 30
0.0
 11
-22.137331
 21
-2.078093
 31
0.0
  0
ARC
  8
Nor_
  5
0
  6
CONTINUOUS
 62
     1
 10
-22.137331
 20
-2.278093
 30
0.0
 40
0.2
 50
0.0
 51
90.000000
  0
LINE
  8
Nor_
  5
0
  6
CONTINUOUS
 62
     1
 10
-21.937331
 20
-2.278093
 30
0.0
 11
-21.937331
 21
-2.500663
 31
0.0
  0
ARC
  8
Nor_
  5
0
  6
CONTINUOUS
 62
     1
 10
-22.137331
 20
-2.500663
 30
0.0
 40
0.200000
 50
276.842770
 51
360.000000
  0
LINE
  8
Nor_
  5
0
  6
CONTINUOUS
 62
     1
 10
-24.261160
 20
-2.956948
 30
0.0
 11
-22.113502
 21
-2.699238
 31
0.0
  0
ARC
  8
Nor_
  5
0
  6
CONTINUOUS
 62
     1
 10
-24.237331
 20
-3.155523
 30
0.0
 40
0.200000
 50
96.842770
 51
180.000000
  0
LINE
  8
Nor_
  5
0
  6
CONTINUOUS
 62
     1
 10
-24.437331
 20
-3.155523
 30
0.0
 11
-24.437331
 21
-3.578093
 31
0.0
  0
ARC
  8
Nor_
  5
0
  6
CONTINUOUS
 62
     1
 10
-24.237331
 20
-3.578093
 30
0.0
 40
0.2
 50
180.000000
 51
270.000000
  0
LINE
  8
Nor_
  5
0
  6
CONTINUOUS
 62
     1
 10
-24.237331
 20
-3.778093
 30
0.0
 11
-21.437331
 21
-3.778093
 31
0.0
  0
LINE
  8
Nor_
  5
0
  6
CONTINUOUS
 62
     1
 10
-21.437331
 20
-3.778093
 30
0.0
 11
-21.437331
 21
-4.378093
 31
0.0
  0
LINE
  8
Nor_
  5
0
  6
CONTINUOUS
 62
     1
 10
-21.437331
 20
-4.378093
 30
0.0
 11
-22.041331
 21
-7.219675
 31
0.0
  0
ARC
  8
Nor_
  5
0
  6
CONTINUOUS
 62
     1
 10
-22.236961
 20
-7.178093
 30
0.0
 40
0.200000
 50
268.033528
 51
348.000000
  0
ARC
  8
Nor_
  5
0
  6
CONTINUOUS
 62
     1
 10
-22.250691
 20
-7.178093
 30
0.0
 40
0.200000
 50
171.800160
 51
271.967710
  0
LINE
  8
Nor_
  5
0
  6
CONTINUOUS
 62
     1
 10
-22.049281
 20
-4.378093
 30
0.0
 11
-22.448646
 21
-7.149568
 31
0.0
  0
LINE
  8
Nor_
  5
0
  6
CONTINUOUS
 62
     1
 10
-23.366641
 20
-4.378093
 30
0.0
 11
-22.049281
 21
-4.378093
 31
0.0
  0
LINE
  8
Quote
  5
0
  6
CONTINUOUS
 62
     7
 10
-31.237331
 20
-6.378093
 30
0.0
 11
-31.237331
 21
-14.571642
 31
0.0
  0
LINE
  8
Quote
  5
0
  6
CONTINUOUS
 62
     7
 10
-19.237331
 20
-6.378093
 30
0.0
 11
-19.237331
 21
-14.571642
 31
0.0
  0
LINE
  8
Quote
  5
0
  6
CONTINUOUS
 62
     7
 10
-31.237331
 20
-14.071642
 30
0.0
 11
-19.237331
 21
-14.071642
 31
0.0
  0
INSERT
  8
Quote
  5
0
  6
CONTINUOUS
 62
     7
  2
FRECCIA
 10
-31.237331
 20
-14.071642
 30
0.0
 41
3.0
 42
3.0
 43
3.0
  0
INSERT
  8
Quote
  5
0
  6
CONTINUOUS
 62
     7
  2
FRECCIA
 10
-19.237331
 20
-14.071642
 30
0.0
 41
3.0
 42
3.0
 43
3.0
 50
180.000000
  0
TEXT
  8
Quote
  5
0
  6
CONTINUOUS
 62
     1
 10
-27.317331
 20
-13.471642
 30
0.0
 40
3.0
  1
12
 41
0.85
  7
ROMANS
  0
LINE
  8
Quote
  5
0
  6
CONTINUOUS
 62
     7
 10
-31.037331
 20
-6.178093
 30
0.0
 11
-35.931950
 21
-6.178093
 31
0.0
  0
LINE
  8
Quote
  5
0
  6
CONTINUOUS
 62
     7
 10
-31.437331
 20
13.821907
 30
0.0
 11
-35.931950
 21
13.821907
 31
0.0
  0
LINE
  8
Quote
  5
0
  6
CONTINUOUS
 62
     7
 10
-35.431950
 20
-6.178093
 30
0.0
 11
-35.431950
 21
13.821907
 31
0.0
  0
INSERT
  8
Quote
  5
0
  6
CONTINUOUS
 62
     7
  2
FRECCIA
 10
-35.431950
 20
-6.178093
 30
0.0
 41
3.0
 42
3.0
 43
3.0
 50
90.0
  0
INSERT
  8
Quote
  5
0
  6
CONTINUOUS
 62
     7
  2
FRECCIA
 10
-35.431950
 20
13.821907
 30
0.0
 41
3.0
 42
3.0
 43
3.0
 50
270.0
  0
TEXT
  8
Quote
  5
0
  6
CONTINUOUS
 62
     1
 10
-36.031950
 20
1.351907
 30
0.0
 40
3.0
  1
20
 50
90.0
 41
0.85
  7
ROMANS
  0
ENDSEC
  0
EOF
